ISO-10303-21;
HEADER;
FILE_DESCRIPTION (( 'STEP AP203' ),
    '1' );
FILE_NAME ('Q-QZWP-R4-20-2020-M.STEP',
    '2020-12-23T01:25:15',
    ( '' ),
    ( '' ),
    'SwSTEP 2.0',
    'SolidWorks 2020',
    '' );
FILE_SCHEMA (( 'CONFIG_CONTROL_DESIGN' ));
ENDSEC;

DATA;
#1 = DIRECTION ( 'NONE',  ( 0.000000000000000000, 0.000000000000000000, 1.000000000000000000 ) ) ;
#2 = CARTESIAN_POINT ( 'NONE',  ( -3.000000000000000444, 0.000000000000000000, 0.000000000000000000 ) ) ;
#3 = DATE_AND_TIME ( #320, #256 ) ;
#4 = PRODUCT_DEFINITION_SHAPE ( 'NONE', 'NONE',  #280 ) ;
#5 = AXIS2_PLACEMENT_3D ( 'NONE', #2, #103, #78 ) ;
#6 = CARTESIAN_POINT ( 'NONE',  ( -3.000000000000000444, 0.000000000000000000, 0.000000000000000000 ) ) ;
#7 = EDGE_CURVE ( 'NONE', #197, #270, #231, .T. ) ;
#8 = CARTESIAN_POINT ( 'NONE',  ( 2.500000000000000888, 0.000000000000000000, 0.000000000000000000 ) ) ;
#9 = LOCAL_TIME ( 9, 25, 15.00000000000000000, #126 ) ;
#10 = ORIENTED_EDGE ( 'NONE', *, *, #302, .F. ) ;
#11 = ORIENTED_EDGE ( 'NONE', *, *, #138, .T. ) ;
#12 = EDGE_LOOP ( 'NONE', ( #273, #198, #194, #111 ) ) ;
#13 = APPROVAL_DATE_TIME ( #229, #319 ) ;
#14 = VERTEX_POINT ( 'NONE', #60 ) ;
#15 = CALENDAR_DATE ( 2020, 23, 12 ) ;
#16 = DIRECTION ( 'NONE',  ( 1.000000000000000000, 0.000000000000000000, 0.000000000000000000 ) ) ;
#17 = MECHANICAL_CONTEXT ( 'NONE', #150, 'mechanical' ) ;
#18 = FACE_BOUND ( 'NONE', #296, .T. ) ;
#19 = DIRECTION ( 'NONE',  ( -1.000000000000000000, -0.000000000000000000, -0.000000000000000000 ) ) ;
#20 = APPROVAL_PERSON_ORGANIZATION ( #146, #225, #227 ) ;
#21 = ADVANCED_FACE ( 'NONE', ( #166 ), #207, .F. ) ;
#22 = CYLINDRICAL_SURFACE ( 'NONE', #38, 10.00000000000000000 ) ;
#23 = AXIS2_PLACEMENT_3D ( 'NONE', #201, #16, #333 ) ;
#24 = CYLINDRICAL_SURFACE ( 'NONE', #121, 12.69999999999999929 ) ;
#25 = LINE ( 'NONE', #286, #295 ) ;
#26 = ADVANCED_FACE ( 'NONE', ( #124 ), #22, .F. ) ;
#27 = PERSON_AND_ORGANIZATION_ROLE ( 'creator' ) ;
#28 = LINE ( 'NONE', #264, #328 ) ;
#29 = EDGE_CURVE ( 'NONE', #117, #249, #190, .T. ) ;
#30 = AXIS2_PLACEMENT_3D ( 'NONE', #232, #180, #285 ) ;
#31 = CARTESIAN_POINT ( 'NONE',  ( -1.614212418857619014, 0.000000000000000000, 0.000000000000000000 ) ) ;
#32 = DIRECTION ( 'NONE',  ( -1.000000000000000000, -0.000000000000000000, -0.000000000000000000 ) ) ;
#33 = EDGE_LOOP ( 'NONE', ( #272, #137, #164, #34 ) ) ;
#34 = ORIENTED_EDGE ( 'NONE', *, *, #196, .F. ) ;
#35 = ADVANCED_FACE ( 'NONE', ( #230, #147 ), #155, .F. ) ;
#36 = EDGE_LOOP ( 'NONE', ( #299, #167 ) ) ;
#37 = ORIENTED_EDGE ( 'NONE', *, *, #7, .T. ) ;
#38 = AXIS2_PLACEMENT_3D ( 'NONE', #177, #279, #278 ) ;
#39 = VERTEX_POINT ( 'NONE', #48 ) ;
#40 = APPROVAL_STATUS ( 'not_yet_approved' ) ;
#41 = CARTESIAN_POINT ( 'NONE',  ( -1.614212418857619014, 0.000000000000000000, 10.00000000000000000 ) ) ;
#42 = DATE_AND_TIME ( #252, #267 ) ;
#43 = ADVANCED_FACE ( 'NONE', ( #228 ), #282, .T. ) ;
#44 = DIRECTION ( 'NONE',  ( -1.000000000000000000, -0.000000000000000000, -0.000000000000000000 ) ) ;
#45 = CLOSED_SHELL ( 'NONE', ( #43, #26, #305, #141, #21, #238, #35, #133, #116, #205 ) ) ;
#46 = PERSON_AND_ORGANIZATION ( #275, #168 ) ;
#47 = LOCAL_TIME ( 9, 25, 15.00000000000000000, #307 ) ;
#48 = CARTESIAN_POINT ( 'NONE',  ( 2.999999999999999112, 0.000000000000000000, 10.00000000000000000 ) ) ;
#49 = DATE_TIME_ROLE ( 'classification_date' ) ;
#50 = APPROVAL_ROLE ( '' ) ;
#51 = DIRECTION ( 'NONE',  ( -1.000000000000000000, -0.000000000000000000, -0.000000000000000000 ) ) ;
#52 = CIRCLE ( 'NONE', #127, 12.69999999999999929 ) ;
#53 = CARTESIAN_POINT ( 'NONE',  ( -1.614212418857619014, 0.000000000000000000, 10.00000000000000000 ) ) ;
#54 = DATE_AND_TIME ( #289, #9 ) ;
#55 = LINE ( 'NONE', #265, #66 ) ;
#56 = DIRECTION ( 'NONE',  ( 1.000000000000000000, 0.000000000000000000, 0.000000000000000000 ) ) ;
#57 = FACE_OUTER_BOUND ( 'NONE', #59, .T. ) ;
#58 = AXIS2_PLACEMENT_3D ( 'NONE', #189, #160, #237 ) ;
#59 = EDGE_LOOP ( 'NONE', ( #10, #142, #330, #85 ) ) ;
#60 = CARTESIAN_POINT ( 'NONE',  ( -3.000000000000000000, 1.555301434917138433E-15, -12.69999999999999929 ) ) ;
#61 = ORIENTED_EDGE ( 'NONE', *, *, #179, .F. ) ;
#62 = VERTEX_POINT ( 'NONE', #233 ) ;
#63 = ORIENTED_EDGE ( 'NONE', *, *, #215, .F. ) ;
#64 = EDGE_LOOP ( 'NONE', ( #247, #144 ) ) ;
#65 = AXIS2_PLACEMENT_3D ( 'NONE', #335, #100, #204 ) ;
#66 = VECTOR ( 'NONE', #321, 1000.000000000000000 ) ;
#67 = APPROVAL_STATUS ( 'not_yet_approved' ) ;
#68 = CARTESIAN_POINT ( 'NONE',  ( -1.614212418857619014, 0.000000000000000000, 0.000000000000000000 ) ) ;
#69 = CC_DESIGN_DATE_AND_TIME_ASSIGNMENT ( #54, #49, ( #99 ) ) ;
#70 =( LENGTH_UNIT ( ) NAMED_UNIT ( * ) SI_UNIT ( .MILLI., .METRE. ) );
#71 = EDGE_CURVE ( 'NONE', #249, #117, #52, .T. ) ;
#72 = DIRECTION ( 'NONE',  ( 1.000000000000000000, 0.000000000000000000, 0.000000000000000000 ) ) ;
#73 =( GEOMETRIC_REPRESENTATION_CONTEXT ( 3 ) GLOBAL_UNCERTAINTY_ASSIGNED_CONTEXT ( ( #274 ) ) GLOBAL_UNIT_ASSIGNED_CONTEXT ( ( #70, #334, #260 ) ) REPRESENTATION_CONTEXT ( 'NONE', 'WORKASPACE' ) );
#74 = DIRECTION ( 'NONE',  ( -1.000000000000000000, -0.000000000000000000, -0.000000000000000000 ) ) ;
#75 = COORDINATED_UNIVERSAL_TIME_OFFSET ( 8, 0, .AHEAD. ) ;
#76 = DIRECTION ( 'NONE',  ( 0.000000000000000000, 0.000000000000000000, -1.000000000000000000 ) ) ;
#77 = PRODUCT ( 'Q-QZWP-R4-20-2020-M', 'Q-QZWP-R4-20-2020-M', '', ( #17 ) ) ;
#78 = DIRECTION ( 'NONE',  ( 0.000000000000000000, 0.000000000000000000, 1.000000000000000000 ) ) ;
#79 = EDGE_CURVE ( 'NONE', #39, #197, #200, .T. ) ;
#80 = DIRECTION ( 'NONE',  ( -1.000000000000000000, 0.000000000000000000, -0.000000000000000000 ) ) ;
#81 = PERSON_AND_ORGANIZATION ( #275, #168 ) ;
#82 = EDGE_CURVE ( 'NONE', #140, #62, #172, .T. ) ;
#83 = DIRECTION ( 'NONE',  ( 0.000000000000000000, 0.000000000000000000, 1.000000000000000000 ) ) ;
#84 = AXIS2_PLACEMENT_3D ( 'NONE', #156, #74, #314 ) ;
#85 = ORIENTED_EDGE ( 'NONE', *, *, #259, .T. ) ;
#86 = VERTEX_POINT ( 'NONE', #98 ) ;
#87 = AXIS2_PLACEMENT_3D ( 'NONE', #68, #174, #125 ) ;
#88 = EDGE_LOOP ( 'NONE', ( #332, #246, #11, #63 ) ) ;
#89 = ADVANCED_BREP_SHAPE_REPRESENTATION ( 'Q-QZWP-R4-20-2020-M', ( #112, #123 ), #73 ) ;
#90 = CIRCLE ( 'NONE', #134, 10.00000000000000000 ) ;
#91 = CC_DESIGN_APPROVAL ( #225, ( #217 ) ) ;
#92 = ORIENTED_EDGE ( 'NONE', *, *, #213, .T. ) ;
#93 = COORDINATED_UNIVERSAL_TIME_OFFSET ( 8, 0, .AHEAD. ) ;
#94 = ORIENTED_EDGE ( 'NONE', *, *, #213, .F. ) ;
#95 = EDGE_CURVE ( 'NONE', #169, #14, #226, .T. ) ;
#96 = CARTESIAN_POINT ( 'NONE',  ( 2.500000000000000888, 0.000000000000000000, 0.000000000000000000 ) ) ;
#97 = AXIS2_PLACEMENT_3D ( 'NONE', #240, #80, #234 ) ;
#98 = CARTESIAN_POINT ( 'NONE',  ( -3.000000000000000444, 1.224646799147353256E-15, -10.00000000000000000 ) ) ;
#99 = SECURITY_CLASSIFICATION ( '', '', #235 ) ;
#100 = DIRECTION ( 'NONE',  ( -1.000000000000000000, 0.000000000000000000, -0.000000000000000000 ) ) ;
#101 = CC_DESIGN_PERSON_AND_ORGANIZATION_ASSIGNMENT ( #206, #120, ( #77 ) ) ;
#102 = DIRECTION ( 'NONE',  ( -1.000000000000000000, -0.000000000000000000, -0.000000000000000000 ) ) ;
#103 = DIRECTION ( 'NONE',  ( -1.000000000000000000, -0.000000000000000000, -0.000000000000000000 ) ) ;
#104 = APPROVAL ( #322, 'UNSPECIFIED' ) ;
#105 = DIRECTION ( 'NONE',  ( -1.000000000000000000, -0.000000000000000000, -0.000000000000000000 ) ) ;
#106 = PERSON_AND_ORGANIZATION ( #275, #168 ) ;
#107 = DIRECTION ( 'NONE',  ( -1.000000000000000000, -0.000000000000000000, -0.000000000000000000 ) ) ;
#108 = AXIS2_PLACEMENT_3D ( 'NONE', #8, #109, #218 ) ;
#109 = DIRECTION ( 'NONE',  ( -1.000000000000000000, -0.000000000000000000, -0.000000000000000000 ) ) ;
#110 = ORIENTED_EDGE ( 'NONE', *, *, #71, .T. ) ;
#111 = ORIENTED_EDGE ( 'NONE', *, *, #79, .F. ) ;
#112 = MANIFOLD_SOLID_BREP ( 'Ðý×', #45 ) ;
#113 = EDGE_LOOP ( 'NONE', ( #220, #139 ) ) ;
#114 = VECTOR ( 'NONE', #187, 1000.000000000000000 ) ;
#115 = PERSON_AND_ORGANIZATION ( #275, #168 ) ;
#116 = ADVANCED_FACE ( 'NONE', ( #255, #18 ), #122, .F. ) ;
#117 = VERTEX_POINT ( 'NONE', #293 ) ;
#118 = DIRECTION ( 'NONE',  ( -1.000000000000000000, -0.000000000000000000, -0.000000000000000000 ) ) ;
#119 = CARTESIAN_POINT ( 'NONE',  ( -3.000000000000000000, 10.00000000000000000, 0.000000000000000000 ) ) ;
#120 = PERSON_AND_ORGANIZATION_ROLE ( 'design_owner' ) ;
#121 = AXIS2_PLACEMENT_3D ( 'NONE', #214, #107, #292 ) ;
#122 = PLANE ( 'NONE',  #65 ) ;
#123 = AXIS2_PLACEMENT_3D ( 'NONE', #311, #154, #250 ) ;
#124 = FACE_OUTER_BOUND ( 'NONE', #88, .T. ) ;
#125 = DIRECTION ( 'NONE',  ( 0.000000000000000000, 0.000000000000000000, 1.000000000000000000 ) ) ;
#126 = COORDINATED_UNIVERSAL_TIME_OFFSET ( 8, 0, .AHEAD. ) ;
#127 = AXIS2_PLACEMENT_3D ( 'NONE', #261, #128, #1 ) ;
#128 = DIRECTION ( 'NONE',  ( -1.000000000000000000, -0.000000000000000000, -0.000000000000000000 ) ) ;
#129 = CARTESIAN_POINT ( 'NONE',  ( 2.999999999999999112, 1.224646799147353256E-15, -10.00000000000000000 ) ) ;
#130 = DIRECTION ( 'NONE',  ( -1.000000000000000000, -0.000000000000000000, -0.000000000000000000 ) ) ;
#131 = PERSON_AND_ORGANIZATION_ROLE ( 'design_supplier' ) ;
#132 = FACE_OUTER_BOUND ( 'NONE', #113, .T. ) ;
#133 = ADVANCED_FACE ( 'NONE', ( #266 ), #24, .T. ) ;
#134 = AXIS2_PLACEMENT_3D ( 'NONE', #209, #181, #135 ) ;
#135 = DIRECTION ( 'NONE',  ( 0.000000000000000000, 0.000000000000000000, 1.000000000000000000 ) ) ;
#136 = DIRECTION ( 'NONE',  ( 0.000000000000000000, 0.000000000000000000, 1.000000000000000000 ) ) ;
#137 = ORIENTED_EDGE ( 'NONE', *, *, #243, .T. ) ;
#138 = EDGE_CURVE ( 'NONE', #86, #248, #306, .T. ) ;
#139 = ORIENTED_EDGE ( 'NONE', *, *, #183, .F. ) ;
#140 = VERTEX_POINT ( 'NONE', #159 ) ;
#141 = ADVANCED_FACE ( 'NONE', ( #162 ), #323, .F. ) ;
#142 = ORIENTED_EDGE ( 'NONE', *, *, #183, .T. ) ;
#143 = CALENDAR_DATE ( 2020, 23, 12 ) ;
#144 = ORIENTED_EDGE ( 'NONE', *, *, #71, .F. ) ;
#145 = CIRCLE ( 'NONE', #58, 10.00000000000000000 ) ;
#146 = PERSON_AND_ORGANIZATION ( #275, #168 ) ;
#147 = FACE_OUTER_BOUND ( 'NONE', #224, .T. ) ;
#148 = APPROVAL_DATE_TIME ( #42, #225 ) ;
#149 = DIRECTION ( 'NONE',  ( 0.000000000000000000, 0.000000000000000000, 1.000000000000000000 ) ) ;
#150 = APPLICATION_CONTEXT ( 'configuration controlled 3d designs of mechanical parts and assemblies' ) ;
#151 = DIRECTION ( 'NONE',  ( 0.000000000000000000, 0.000000000000000000, 1.000000000000000000 ) ) ;
#152 = AXIS2_PLACEMENT_3D ( 'NONE', #173, #19, #151 ) ;
#153 = AXIS2_PLACEMENT_3D ( 'NONE', #294, #56, #76 ) ;
#154 = DIRECTION ( 'NONE',  ( 0.000000000000000000, 0.000000000000000000, 1.000000000000000000 ) ) ;
#155 = PLANE ( 'NONE',  #277 ) ;
#156 = CARTESIAN_POINT ( 'NONE',  ( 3.000000000000000000, 0.000000000000000000, 0.000000000000000000 ) ) ;
#157 = DIRECTION ( 'NONE',  ( -1.000000000000000000, -0.000000000000000000, -0.000000000000000000 ) ) ;
#158 = APPROVAL_DATE_TIME ( #3, #104 ) ;
#159 = CARTESIAN_POINT ( 'NONE',  ( -2.500000000000000444, 0.000000000000000000, 10.00000000000000000 ) ) ;
#160 = DIRECTION ( 'NONE',  ( 1.000000000000000000, 0.000000000000000000, 0.000000000000000000 ) ) ;
#161 = LINE ( 'NONE', #53, #308 ) ;
#162 = FACE_OUTER_BOUND ( 'NONE', #193, .T. ) ;
#163 = APPROVAL_PERSON_ORGANIZATION ( #81, #104, #50 ) ;
#164 = ORIENTED_EDGE ( 'NONE', *, *, #95, .F. ) ;
#165 = CC_DESIGN_PERSON_AND_ORGANIZATION_ASSIGNMENT ( #315, #131, ( #217 ) ) ;
#166 = FACE_OUTER_BOUND ( 'NONE', #269, .T. ) ;
#167 = ORIENTED_EDGE ( 'NONE', *, *, #138, .F. ) ;
#168 = ORGANIZATION ( 'UNSPECIFIED', 'UNSPECIFIED', '' ) ;
#169 = VERTEX_POINT ( 'NONE', #185 ) ;
#170 = CARTESIAN_POINT ( 'NONE',  ( 2.999999999999999112, 0.000000000000000000, 0.000000000000000000 ) ) ;
#171 = ORIENTED_EDGE ( 'NONE', *, *, #179, .T. ) ;
#172 = CIRCLE ( 'NONE', #23, 10.00000000000000000 ) ;
#173 = CARTESIAN_POINT ( 'NONE',  ( -1.614212418857619014, 0.000000000000000000, 0.000000000000000000 ) ) ;
#174 = DIRECTION ( 'NONE',  ( -1.000000000000000000, -0.000000000000000000, -0.000000000000000000 ) ) ;
#175 = COORDINATED_UNIVERSAL_TIME_OFFSET ( 8, 0, .AHEAD. ) ;
#176 = LINE ( 'NONE', #236, #114 ) ;
#177 = CARTESIAN_POINT ( 'NONE',  ( -1.614212418857619014, 0.000000000000000000, 0.000000000000000000 ) ) ;
#178 = APPLICATION_PROTOCOL_DEFINITION ( 'international standard', 'config_control_design', 1994, #150 ) ;
#179 = EDGE_CURVE ( 'NONE', #14, #169, #288, .T. ) ;
#180 = DIRECTION ( 'NONE',  ( -1.000000000000000000, -0.000000000000000000, -0.000000000000000000 ) ) ;
#181 = DIRECTION ( 'NONE',  ( -1.000000000000000000, -0.000000000000000000, -0.000000000000000000 ) ) ;
#182 = CARTESIAN_POINT ( 'NONE',  ( -3.000000000000000444, 0.000000000000000000, 10.00000000000000000 ) ) ;
#183 = EDGE_CURVE ( 'NONE', #62, #140, #145, .T. ) ;
#184 = CC_DESIGN_SECURITY_CLASSIFICATION ( #99, ( #217 ) ) ;
#185 = CARTESIAN_POINT ( 'NONE',  ( -3.000000000000000000, 0.000000000000000000, 12.69999999999999929 ) ) ;
#186 = SHAPE_DEFINITION_REPRESENTATION ( #4, #89 ) ;
#187 = DIRECTION ( 'NONE',  ( -1.000000000000000000, -0.000000000000000000, -0.000000000000000000 ) ) ;
#188 = PLANE ( 'NONE',  #153 ) ;
#189 = CARTESIAN_POINT ( 'NONE',  ( -2.500000000000000444, 0.000000000000000000, 0.000000000000000000 ) ) ;
#190 = CIRCLE ( 'NONE', #84, 12.69999999999999929 ) ;
#191 = DESIGN_CONTEXT ( 'detailed design', #297, 'design' ) ;
#192 = CC_DESIGN_APPROVAL ( #104, ( #99 ) ) ;
#193 = EDGE_LOOP ( 'NONE', ( #325, #298 ) ) ;
#194 = ORIENTED_EDGE ( 'NONE', *, *, #310, .T. ) ;
#195 = PRODUCT_RELATED_PRODUCT_CATEGORY ( 'detail', '', ( #77 ) ) ;
#196 = EDGE_CURVE ( 'NONE', #117, #169, #55, .T. ) ;
#197 = VERTEX_POINT ( 'NONE', #317 ) ;
#198 = ORIENTED_EDGE ( 'NONE', *, *, #203, .T. ) ;
#199 = DATE_TIME_ROLE ( 'creation_date' ) ;
#200 = LINE ( 'NONE', #41, #324 ) ;
#201 = CARTESIAN_POINT ( 'NONE',  ( -2.500000000000000444, 0.000000000000000000, 0.000000000000000000 ) ) ;
#202 = CC_DESIGN_DATE_AND_TIME_ASSIGNMENT ( #254, #199, ( #280 ) ) ;
#203 = EDGE_CURVE ( 'NONE', #251, #270, #28, .T. ) ;
#204 = DIRECTION ( 'NONE',  ( -0.000000000000000000, 0.000000000000000000, 1.000000000000000000 ) ) ;
#205 = ADVANCED_FACE ( 'NONE', ( #132 ), #188, .F. ) ;
#206 = PERSON_AND_ORGANIZATION ( #275, #168 ) ;
#207 = CYLINDRICAL_SURFACE ( 'NONE', #87, 10.00000000000000000 ) ;
#208 = DIRECTION ( 'NONE',  ( -1.000000000000000000, -0.000000000000000000, -0.000000000000000000 ) ) ;
#209 = CARTESIAN_POINT ( 'NONE',  ( 2.999999999999999112, 0.000000000000000000, 0.000000000000000000 ) ) ;
#210 = CC_DESIGN_PERSON_AND_ORGANIZATION_ASSIGNMENT ( #239, #212, ( #99 ) ) ;
#211 = DIRECTION ( 'NONE',  ( 0.000000000000000000, 0.000000000000000000, 1.000000000000000000 ) ) ;
#212 = PERSON_AND_ORGANIZATION_ROLE ( 'classification_officer' ) ;
#213 = EDGE_CURVE ( 'NONE', #39, #251, #90, .T. ) ;
#214 = CARTESIAN_POINT ( 'NONE',  ( -1.614212418857619014, 0.000000000000000000, 0.000000000000000000 ) ) ;
#215 = EDGE_CURVE ( 'NONE', #140, #248, #161, .T. ) ;
#216 = AXIS2_PLACEMENT_3D ( 'NONE', #309, #44, #149 ) ;
#217 = PRODUCT_DEFINITION_FORMATION_WITH_SPECIFIED_SOURCE ( 'ANY', '', #77, .NOT_KNOWN. ) ;
#218 = DIRECTION ( 'NONE',  ( 0.000000000000000000, 0.000000000000000000, 1.000000000000000000 ) ) ;
#219 = ORIENTED_EDGE ( 'NONE', *, *, #243, .F. ) ;
#220 = ORIENTED_EDGE ( 'NONE', *, *, #82, .F. ) ;
#221 = ORIENTED_EDGE ( 'NONE', *, *, #79, .T. ) ;
#222 = AXIS2_PLACEMENT_3D ( 'NONE', #31, #208, #316 ) ;
#223 = APPROVAL_ROLE ( '' ) ;
#224 = EDGE_LOOP ( 'NONE', ( #327, #171 ) ) ;
#225 = APPROVAL ( #67, 'UNSPECIFIED' ) ;
#226 = CIRCLE ( 'NONE', #216, 12.69999999999999929 ) ;
#227 = APPROVAL_ROLE ( '' ) ;
#228 = FACE_OUTER_BOUND ( 'NONE', #33, .T. ) ;
#229 = DATE_AND_TIME ( #143, #47 ) ;
#230 = FACE_BOUND ( 'NONE', #36, .T. ) ;
#231 = CIRCLE ( 'NONE', #108, 10.00000000000000000 ) ;
#232 = CARTESIAN_POINT ( 'NONE',  ( -1.614212418857619014, 0.000000000000000000, 0.000000000000000000 ) ) ;
#233 = CARTESIAN_POINT ( 'NONE',  ( -2.500000000000000444, 1.224646799147353256E-15, -10.00000000000000000 ) ) ;
#234 = DIRECTION ( 'NONE',  ( -0.000000000000000000, 0.000000000000000000, 1.000000000000000000 ) ) ;
#235 = SECURITY_CLASSIFICATION_LEVEL ( 'unclassified' ) ;
#236 = CARTESIAN_POINT ( 'NONE',  ( -1.614212418857619014, 1.224646799147353256E-15, -10.00000000000000000 ) ) ;
#237 = DIRECTION ( 'NONE',  ( 0.000000000000000000, 0.000000000000000000, -1.000000000000000000 ) ) ;
#238 = ADVANCED_FACE ( 'NONE', ( #57 ), #268, .F. ) ;
#239 = PERSON_AND_ORGANIZATION ( #275, #168 ) ;
#240 = CARTESIAN_POINT ( 'NONE',  ( 2.500000000000000444, 10.00000000000000000, 0.000000000000000000 ) ) ;
#241 = CC_DESIGN_APPROVAL ( #319, ( #280 ) ) ;
#242 = CC_DESIGN_PERSON_AND_ORGANIZATION_ASSIGNMENT ( #115, #331, ( #280 ) ) ;
#243 = EDGE_CURVE ( 'NONE', #249, #14, #25, .T. ) ;
#244 = CARTESIAN_POINT ( 'NONE',  ( -3.000000000000000000, 0.000000000000000000, 0.000000000000000000 ) ) ;
#245 = AXIS2_PLACEMENT_3D ( 'NONE', #6, #105, #211 ) ;
#246 = ORIENTED_EDGE ( 'NONE', *, *, #302, .T. ) ;
#247 = ORIENTED_EDGE ( 'NONE', *, *, #29, .F. ) ;
#248 = VERTEX_POINT ( 'NONE', #182 ) ;
#249 = VERTEX_POINT ( 'NONE', #262 ) ;
#250 = DIRECTION ( 'NONE',  ( 1.000000000000000000, 0.000000000000000000, 0.000000000000000000 ) ) ;
#251 = VERTEX_POINT ( 'NONE', #129 ) ;
#252 = CALENDAR_DATE ( 2020, 23, 12 ) ;
#253 = DIRECTION ( 'NONE',  ( -1.000000000000000000, -0.000000000000000000, -0.000000000000000000 ) ) ;
#254 = DATE_AND_TIME ( #15, #318 ) ;
#255 = FACE_OUTER_BOUND ( 'NONE', #64, .T. ) ;
#256 = LOCAL_TIME ( 9, 25, 15.00000000000000000, #75 ) ;
#257 = CC_DESIGN_PERSON_AND_ORGANIZATION_ASSIGNMENT ( #106, #27, ( #217 ) ) ;
#258 = AXIS2_PLACEMENT_3D ( 'NONE', #244, #130, #83 ) ;
#259 = EDGE_CURVE ( 'NONE', #248, #86, #329, .T. ) ;
#260 =( NAMED_UNIT ( * ) SI_UNIT ( $, .STERADIAN. ) SOLID_ANGLE_UNIT ( ) );
#261 = CARTESIAN_POINT ( 'NONE',  ( 3.000000000000000000, 0.000000000000000000, 0.000000000000000000 ) ) ;
#262 = CARTESIAN_POINT ( 'NONE',  ( 3.000000000000000000, 1.555301434917138433E-15, -12.69999999999999929 ) ) ;
#263 = CIRCLE ( 'NONE', #301, 10.00000000000000000 ) ;
#264 = CARTESIAN_POINT ( 'NONE',  ( -1.614212418857619014, 1.224646799147353256E-15, -10.00000000000000000 ) ) ;
#265 = CARTESIAN_POINT ( 'NONE',  ( -1.614212418857619014, 0.000000000000000000, 12.69999999999999929 ) ) ;
#266 = FACE_OUTER_BOUND ( 'NONE', #303, .T. ) ;
#267 = LOCAL_TIME ( 9, 25, 15.00000000000000000, #175 ) ;
#268 = CYLINDRICAL_SURFACE ( 'NONE', #222, 10.00000000000000000 ) ;
#269 = EDGE_LOOP ( 'NONE', ( #326, #94, #221, #37 ) ) ;
#270 = VERTEX_POINT ( 'NONE', #290 ) ;
#271 = CIRCLE ( 'NONE', #291, 10.00000000000000000 ) ;
#272 = ORIENTED_EDGE ( 'NONE', *, *, #29, .T. ) ;
#273 = ORIENTED_EDGE ( 'NONE', *, *, #287, .F. ) ;
#274 = UNCERTAINTY_MEASURE_WITH_UNIT (LENGTH_MEASURE( 1.000000000000000082E-05 ), #70, 'distance_accuracy_value', 'NONE');
#275 = PERSON ( 'UNSPECIFIED', 'UNSPECIFIED', 'UNSPECIFIED', ('UNSPECIFIED'), ('UNSPECIFIED'), ('UNSPECIFIED') ) ;
#276 = ORIENTED_EDGE ( 'NONE', *, *, #196, .T. ) ;
#277 = AXIS2_PLACEMENT_3D ( 'NONE', #119, #72, #283 ) ;
#278 = DIRECTION ( 'NONE',  ( 0.000000000000000000, 0.000000000000000000, 1.000000000000000000 ) ) ;
#279 = DIRECTION ( 'NONE',  ( -1.000000000000000000, -0.000000000000000000, -0.000000000000000000 ) ) ;
#280 = PRODUCT_DEFINITION ( 'UNKNOWN', '', #217, #191 ) ;
#281 = CYLINDRICAL_SURFACE ( 'NONE', #152, 10.00000000000000000 ) ;
#282 = CYLINDRICAL_SURFACE ( 'NONE', #30, 12.69999999999999929 ) ;
#283 = DIRECTION ( 'NONE',  ( 0.000000000000000000, 0.000000000000000000, -1.000000000000000000 ) ) ;
#284 = FACE_OUTER_BOUND ( 'NONE', #12, .T. ) ;
#285 = DIRECTION ( 'NONE',  ( 0.000000000000000000, 0.000000000000000000, 1.000000000000000000 ) ) ;
#286 = CARTESIAN_POINT ( 'NONE',  ( -1.614212418857619014, 1.555301434917138433E-15, -12.69999999999999929 ) ) ;
#287 = EDGE_CURVE ( 'NONE', #251, #39, #263, .T. ) ;
#288 = CIRCLE ( 'NONE', #258, 12.69999999999999929 ) ;
#289 = CALENDAR_DATE ( 2020, 23, 12 ) ;
#290 = CARTESIAN_POINT ( 'NONE',  ( 2.500000000000000888, 1.224646799147353256E-15, -10.00000000000000000 ) ) ;
#291 = AXIS2_PLACEMENT_3D ( 'NONE', #96, #118, #312 ) ;
#292 = DIRECTION ( 'NONE',  ( 0.000000000000000000, 0.000000000000000000, 1.000000000000000000 ) ) ;
#293 = CARTESIAN_POINT ( 'NONE',  ( 3.000000000000000000, 0.000000000000000000, 12.69999999999999929 ) ) ;
#294 = CARTESIAN_POINT ( 'NONE',  ( -2.500000000000000444, 10.00000000000000000, 0.000000000000000000 ) ) ;
#295 = VECTOR ( 'NONE', #157, 1000.000000000000000 ) ;
#296 = EDGE_LOOP ( 'NONE', ( #92, #304 ) ) ;
#297 = APPLICATION_CONTEXT ( 'configuration controlled 3d designs of mechanical parts and assemblies' ) ;
#298 = ORIENTED_EDGE ( 'NONE', *, *, #310, .F. ) ;
#299 = ORIENTED_EDGE ( 'NONE', *, *, #259, .F. ) ;
#300 = APPROVAL_PERSON_ORGANIZATION ( #46, #319, #223 ) ;
#301 = AXIS2_PLACEMENT_3D ( 'NONE', #170, #32, #136 ) ;
#302 = EDGE_CURVE ( 'NONE', #62, #86, #176, .T. ) ;
#303 = EDGE_LOOP ( 'NONE', ( #219, #110, #276, #61 ) ) ;
#304 = ORIENTED_EDGE ( 'NONE', *, *, #287, .T. ) ;
#305 = ADVANCED_FACE ( 'NONE', ( #284 ), #281, .F. ) ;
#306 = CIRCLE ( 'NONE', #245, 10.00000000000000000 ) ;
#307 = COORDINATED_UNIVERSAL_TIME_OFFSET ( 8, 0, .AHEAD. ) ;
#308 = VECTOR ( 'NONE', #51, 1000.000000000000000 ) ;
#309 = CARTESIAN_POINT ( 'NONE',  ( -3.000000000000000000, 0.000000000000000000, 0.000000000000000000 ) ) ;
#310 = EDGE_CURVE ( 'NONE', #270, #197, #271, .T. ) ;
#311 = CARTESIAN_POINT ( 'NONE',  ( 0.000000000000000000, 0.000000000000000000, 0.000000000000000000 ) ) ;
#312 = DIRECTION ( 'NONE',  ( 0.000000000000000000, 0.000000000000000000, 1.000000000000000000 ) ) ;
#313 = APPLICATION_PROTOCOL_DEFINITION ( 'international standard', 'config_control_design', 1994, #297 ) ;
#314 = DIRECTION ( 'NONE',  ( 0.000000000000000000, 0.000000000000000000, 1.000000000000000000 ) ) ;
#315 = PERSON_AND_ORGANIZATION ( #275, #168 ) ;
#316 = DIRECTION ( 'NONE',  ( 0.000000000000000000, 0.000000000000000000, 1.000000000000000000 ) ) ;
#317 = CARTESIAN_POINT ( 'NONE',  ( 2.500000000000000888, 0.000000000000000000, 10.00000000000000000 ) ) ;
#318 = LOCAL_TIME ( 9, 25, 15.00000000000000000, #93 ) ;
#319 = APPROVAL ( #40, 'UNSPECIFIED' ) ;
#320 = CALENDAR_DATE ( 2020, 23, 12 ) ;
#321 = DIRECTION ( 'NONE',  ( -1.000000000000000000, -0.000000000000000000, -0.000000000000000000 ) ) ;
#322 = APPROVAL_STATUS ( 'not_yet_approved' ) ;
#323 = PLANE ( 'NONE',  #97 ) ;
#324 = VECTOR ( 'NONE', #253, 1000.000000000000000 ) ;
#325 = ORIENTED_EDGE ( 'NONE', *, *, #7, .F. ) ;
#326 = ORIENTED_EDGE ( 'NONE', *, *, #203, .F. ) ;
#327 = ORIENTED_EDGE ( 'NONE', *, *, #95, .T. ) ;
#328 = VECTOR ( 'NONE', #102, 1000.000000000000000 ) ;
#329 = CIRCLE ( 'NONE', #5, 10.00000000000000000 ) ;
#330 = ORIENTED_EDGE ( 'NONE', *, *, #215, .T. ) ;
#331 = PERSON_AND_ORGANIZATION_ROLE ( 'creator' ) ;
#332 = ORIENTED_EDGE ( 'NONE', *, *, #82, .T. ) ;
#333 = DIRECTION ( 'NONE',  ( 0.000000000000000000, 0.000000000000000000, -1.000000000000000000 ) ) ;
#334 =( NAMED_UNIT ( * ) PLANE_ANGLE_UNIT ( ) SI_UNIT ( $, .RADIAN. ) );
#335 = CARTESIAN_POINT ( 'NONE',  ( 2.999999999999999112, 12.69999999999999929, 0.000000000000000000 ) ) ;
ENDSEC;
END-ISO-10303-21;
